Zamknij Witaj! Zaloguj się lub zarejestruj nowe konto tutaj. Rejestracja jest szybka i nie wymaga wypełniania skomplikowanych formularzy!
www.AionOnline.com.pl
+  Aion Online
|-+  Społeczność» Off-Topic» Muzyka» Piosenki na gitarke
Login:
Hasło:
Strony: [1]
Drukuj
Autor Wątek: Piosenki na gitarke  (Przeczytany 1845 razy)
Verith
Darczyńca
Aktywny użytkownik
*
Offline Offline

Wiadomości: 115
Nick: Verith
Legion: Circle of Nine
Wersja: Europa




IGNORUJ
: Lipiec 03, 2010, 17:25:09

Znacie może jakieś fajne i stosunkowo nie trudne pioseneczki na akustyka (nie elektryk itd)
Sam niedawno zacząłem się uczyć grać i coś tam już umiem ale oczywiście brak mi sporo praktyki i płynności jednak większa frajda jest z nauki jak sie człowiek uczy czegoś co mu sie podoba a niżeli odgrywa w kółko akordy.
np.
eCaE - Jest super T.Love

Szukałbym czegoś jak Wonderwall -Oasis
http://www.youtube.com/watch?v=6hzrDeceEKc

Albo może jakieś konkretne nazwisko artysty co grywa sam i przyśpiewuje do tego tak chillout'owo.

E:
Dodam, że wiem ze przy Oasis to podobnie jak przy T.love'iwe później jest zgrywane ciągłe w koło akordów ale jednak na akustyku lepiej brzmi 'Wonderwall' niż 'Jest Super'.
O to chodzi właśnie aby ów piosenki były stworzone pod akustyka.
« Ostatnia zmiana: Lipiec 03, 2010, 17:29:05 wysłane przez Verith » Zapisane
Reklama
« : Lipiec 03, 2010, 17:25:09 »

Zarejestruj konto i zacznij grać!
 Zapisane
Noma
Zaawansowany użytkownik
****
Offline Offline

Wiadomości: 257
Rasa: Asmodians
Klasa: Chanter
Nick: Skorge
Wersja: Europa
Serwer: [EU] Spatalos




IGNORUJ
Odpowiedz 1 : Lipiec 03, 2010, 17:40:48

Spróbuj tych 4 akordów.

==============Edur===========


1 2 3 4 5 6 7 8 9 10
E 0 |----|----|----|----|----|----|----|----|----|----|
H 0 |----|----|----|----|----|----|----|----|----|----|
G |----|----|----|----|----|----|----|----|-4-|----|
D |----|----|----|----|----|----|----|----|-3-|----|
A |----|----|----|----|----|----|-1-|----|----|----|
E 0 |----|----|----|----|----|----|----|----|----|----|

==============Bsus4===========


1 2 3 4 5 6 7 8 9 10
E 0 |----|----|----|----|----|----|----|----|----|----|
H 0 |----|----|----|----|----|----|----|----|----|----|
G |----|----|----|----|----|----|----|-2-|----|----|
D |----|----|----|----|----|----|----|----|-4-|----|
A |----|----|----|----|----|----|----|----|-3-|----|
E |----|----|----|----|----|----|-1-|----|----|----|

==============C#m7===========


1 2 3 4 5 6 7 8 9 10
E 0 |----|----|----|----|----|----|----|----|----|----|
H 0 |----|----|----|----|----|----|----|----|----|----|
G |----|----|----|----|----|-4-|----|----|----|----|
D |----|----|----|----|----|-3-|----|----|----|----|
A |----|----|----|-1-|----|----|----|----|----|----|
E X |----|----|----|----|----|----|----|----|----|----|

==============Asus2===========


1 2 3 4 5 6 7 8 9 10
E 0 |----|----|----|----|----|----|----|----|----|----|
H 0 |----|----|----|----|----|----|----|----|----|----|
G |----|----|----|----|----|-2-|----|----|----|----|
D |----|----|----|----|----|----|-4-|----|----|----|
A |----|----|----|----|----|----|-3-|----|----|----|
E |----|----|----|----|-1-|----|----|----|----|----|

Bicie : dół dół góra góra dół góra.

Chcesz tekst ?
Zapisane
Verith
Darczyńca
Aktywny użytkownik
*
Offline Offline

Wiadomości: 115
Nick: Verith
Legion: Circle of Nine
Wersja: Europa




IGNORUJ
Odpowiedz 2 : Lipiec 03, 2010, 17:44:17

Nie nie. Za śpiewanie się nie biore Język
Ale mogłeś dać jedynie tytuł  TAB'y czy kordy bez problemów znajdę bo masa tego w google
Ale dzieki Uśmiech
Zapisane
Strony: [1]
Drukuj
 
Skocz do:  

Zarejestruj konto i zacznij grać!